Duman - Masal Tab

5 Şubat 2007
1,810
18
139
İzmir(35½)
Duman - Masal Tab :

intro
D
e|------------------|------------------|------------------|------------------|
B|------------------|------------------|------------------|------------------|
G|6/7-7---6/7-7---7-|6/7-7---6/7-7---7-|6/7-7---6/7-7---7-|6/7-7---6/7-7---6-|
D|7---7---7---7---7-|7---7---7---7---7-|7---7---7---7---7-|7---7---7---7---7-|
A|5---5---5---5---5-|5---5---5---5---5-|5---5---5---5---5-|5---5---5---5---5-|
E|------------------|------------------|------------------|------------------|



G A C
e|------------------|------------------|------------------|------------------|
B|------------------|------------------|------------------|------------------|
G|4---4-4-4/5-7-----|6---6-6-6/7-9-----|9---9-9-9h10p9----|9-9-9-9-9h10p9----|
D|5-----------------|7-----------------|------------------|------------------|
A|5-----------------|7-----------------|------------------|------------------|
E|------------------|------------------|------------------|------------------|
1...biri sağdan biri soldan asılınca
2...biri yasaya biri kasaya karıçınca



solo
D A D A
e|------------------|------------------|------------------|--------^---------|
B|------------------|------------------|3---3-3-3---3---3-|5p3-5p3-5(6)(5)---|
G|----7-7-7---7-----|6--4--2---2-----|------------------|------------------|
D|------------------|------------------|------------------|------------------|
A|------------------|------------------|------------------|------------------|
E|------------------|------------------|------------------|------------------|

G A G A
e|------------------|------------------|------------------|------------------|
B|/8--8P7-8---8---7-|8/10-10/7-7/5-5---|8---8P7-8---8---7-|8/10-10/1212/14-14|
G|------------------|------------------|------------------|------------------|
D|------------------|------------------|------------------|------------------|
A|------------------|------------------|------------------|------------------|
E|------------------|------------------|------------------|------------------|

D~~
e|------------------|------------------|------------------|------------------|
B|14/15-1514/15-1515|14/15-1514/15-1515|14/15-1514/15-1515|14/15-1514/15-1515|
G|------------------|------------------|------------------|------------------|
D|------------------|------------------|------------------|------------------|
A|------------------|------------------|------------------|------------------|
E|------------------|------------------|------------------|------------------|


NOT: (~~) işaretlerinin bulunduğu yerlerde intro çalınıyo.(dinleseniz yeter)
(^) ise 1/2 bend yapılacağını gösteriyo. bendden sonraki parantezli notalar
bendin vuruşuyla çalınıyo.