Duman - Kara Toprak Tab

5 Şubat 2007
1,810
18
139
İzmir(35½)
Duman - Kara Toprak Tab :

E--------------------------------------------------------------------------------
B-0-5^-3-2-0---05^-3-2-0----3--3-3--3
G-------------------------------------2--2--4--2--------4-2-0---2--2-2--2
D------------------------------------------------5-4-2--------------------5-4/2-0
A--------------------------------------------------------------------------------
E--------------------------------------------------------------------------------

E--------------------------------------------------------------------------------
B--------------------------------------------------------------------------------
G---------------------------------------------------2/4---------------------------
D--5--5-5--5-4-2-----5--5-5--5-4-2----0-0-2---------2/4---5-5--4-4--2-0----5--5-5--5--2---5--5-5--5-2---0-0-2
A-------------------------------------------------------------------------------------
E-------------------------------------------------------------------------------------

ARA SOLO :

E----------------------------------------------------------------------------------
B--3-2-2-3-3-5---------------3-2-2-3-3-5-------------------------------------------
G-----4--------------------------4-------------------------------------------------
D-----------------------------------------------------------------------------------
A-----------------------------------------------------------------------------------
E-----------------------------------------------------------------------------------