Duman - Kırmış Kalbini Tab (Elektro Ve Bass)

5 Şubat 2007
1,810
18
139
İzmir(35½)
Duman - Kırmış Kalbini Tab :

E-------------------------------------------------------------------------
A-------------------------------------------------------------------------
D-------------------------------------------------------------------------
G-------------------2-----2--------------------2-----2--------------------2----
B-3-1-0-3-1-0--0-1-----------3-1-0-3-1-0--0-1-----------3-1-0-3-1-0--0-1------
E-------------------------------------------------------------------------

E--------------------------------------------------------------
A--------------------------------------------------------------
D--------------------------------------------------------------
G-------------------2-----2/3-----------------------2----------------
B-3-1-0-3-1-0--0-1----------------3-1-0-3-1-0--0-1------------------
E--------------------------------------------------------------

E---------------------------------------------------
A---------------------------------------------------
D---------------------------------------------------
G--------------------------------------2--------------
B-1-3-3-3-1-1-0----0-3-1-0-3-1-0--0-1----------------
E---------------------------------------------------

E-------------------------------------------------------------------
A-------------------------------------------------------------------
D-------------------------------------------------------------------
G-----------------------------------------2--------------------2------
B-1-3-3-3-1-3/5-5/8-8-9-10---1-3-3-1-1-0-----3-1-0-3-1-0--0-1---------
E---------------------------------------------------

E---------------------------------------------------
A---------------------------------------------------
D---------------------------------------------------
G------------------2/3--------------------2-----------------
B-1-0-0-0--0-1---------------1-0-0-0--0-1------------------
E---------------------------------------------------

2:50 den sonraki kısım
E--------------------------------------------------------------
A--------------------------------------------------------------
D--------------------------------------------------------------
G-------------------2------------------------------------------2---
B-3-1-0-3-1-0--0-1--------1-3-3-3-1-1-0----0--3-1-0-3-1-0--0-1-----
E---------------------------------------------------


E-----------------------------------------------------------------
A-----------------------------------------------------------------
D-----------------------------------------------------------------
G-----------------------------------------------------------------
B-----------------------------------------------------------------
B-1-3-3-3-1-3/5-5/8-8-9-10---10-12-12-10-10-9----9--10-9-9-10-9-9---
E-----------------------------------------------------------------

E---------------------------------------------------
A---------------------------------------------------
D---------------------------------------------------
G---------------------------------------------------
B-10-9-9-9-9p10------9---10-9-9-9-9-9/10/7-------------
E-----------------7----------------------------------

'/'koyulan yerlerde tele bir kere vurup kaydırın ör: 3/5 5/8 yazan yerde 3 ten 8 e bi vuruşta kay sonra hemen
5 ten 8 e bi vuruşla geçin

Duman - Kırmış Kalbini Tab Bass :

Intro: Repeat X 2

G---------------------------------------------------------------------------|
D---------------------------------------------------------------------------|
A---------------------------------------------------------------------------|
E-111--000---111---000---111---000----333--111---000---111------------------|


Repeat x8

G------------------------------------|
D------------------------------------|
A------------------------------------|
E--111---000-------------------------|

G------------------------------------|
D------------------------------------|
A------------------------------------|
E--11111111-1/9----------------------|


Repeat X4

G-------------------------------------------------|
D-------------------------------------------------|
A--------------------2-222-2--0-000-0-------------|
E-1111111---000000--------------------------------|





G---------------------------------------------------------------------------|
D---------------------------------------------------------------------------|
A---------------------------------------------------------------------------|
E-111--000---111---000---111---000----333--111---000---111------------------|