Duman - Köprü Altı Tab (1-2 Versiyon) (Elektro Ve Bass)

5 Şubat 2007
1,810
18
139
İzmir(35½)
Duman - Köprü Altı Tab :

G-----13-------14-----------9---13-14--13-------16----------
D----X-----X---------X2-----X---X--X---X-/----X-------------
A---11----12----------------7--11-12--11---14---------------
E---0---0---------0---------0--0--0---0-/-0-----------------

Riff 1 her nakarat bittiği zaman ve geçişlerde çalınınacak

Riff 2
G----------------13--------14-------------------------------
D--------------X---------X----------------------------------
A------------11-------12------------------------------------
E----------0--------0---------------------------------------
Denizler aştım geliyorum
Bilirsin derdim seninle

Riff 3
D-----7-----6--------------4--------------------------------
A-----5-----4-------4------2--------------------------------
E-------------------2---------------------------------------
D5 D#5 F#5 B5

Denizler aştım geliyorum ister eğlen benimle
Yüzünü bir görsem yeter
G---------4------5-------7-----------------
A--4------3------4-------6-----6----11-----------
E--2------4------5-------7-----4----9-----------


F#5 G#7(9) G7(9) B7(9) G#5 C#5


Nakarat
E-----------------------------------------------------------
B----13----12-------5---------------------------------------
G----11----10-------4---------------------------------------
D-----------------------------------------------------------
A----12----11-------4-----4 -6---7----7-----6----11--------
E----10----9--------2-----2---4---5----9-----4----9---------


F#5 G#5 A5 B5 G#5 C#5
E-----------------------------------------------------------
B---------------------------------10-9---10---12----10 9----
G---------------------------------11-----11---------11------
D--------------------------------12-----12----------12------
A-----------------------------------------------------------
E-------4h7-----nakarat tekrar------------------------------
-----------------

nakarat ve bitiş

Versiyon 2 :


İz 1
E E E E E E E E
E||-------|-------|------------------------------|
B||-------|-------|------------------------------|
G||-------|-------|--13-----13-----14-----14-----|
D||-------|-------|------------------------------|
A||-------|-------|--11-----11-----12-----12-----|
E||-------|-------|------------------------------|


E E E E E E E E E E E E E E E E
------------------------------|-----------------------------|
------------------------------|-----------------------------|
--13-----13--------14-----14--|--------13-----14-----14-----|
------------------------------|-----------------------------|
--11-----11--------12-----12--|--------11-----12-----12-----|
------------------------------|-----------------------------|


E E E E E E E E E E E E E E E E
----------------------------|-----------------------------|
----------------------------|-----------------------------|
--13-----13--------9-----9--|--------13-----14-----14-----|
----------------------------|-----------------------------|
--11-----11--------7-----7--|--------11-----12-----12-----|
----------------------------|-----------------------------|


E E E E E E E E E E E E E E E E
------------------------------|-----------------------------|
------------------------------|-----------------------------|
--13-----13--------14-----14--|--------13-----14-----14-----|
------------------------------|-----------------------------|
--11-----11--------12-----12--|--------11-----12-----12-----|
------------------------------|-----------------------------|


E E E E E E E E E E E E E E E E 4x
----------------------------||------------------------------------||
----------------------------||------------------------------------||
--13-----13--------9-----9--||*--13--13--13--13--14--14--14--14--*||
----------------------------||*----------------------------------*||
--11-----11--------7-----7--||---11--11--11--11--12--12--12--12---||
----------------------------||------------------------------------||


E E E E E E E E E E E E E E E E
------------------------------|------------------------------|
------------------------------|------------------------------|
--13-----13-----14-----14-----|--13-----13--------14-----14--|
------------------------------|------------------------------|
--11-----11-----12-----12-----|--11-----11--------12-----12--|
------------------------------|------------------------------|


E E E E E E E E E E E E E E E E
-----------------------------|----------------------------|
-----------------------------|----------------------------|
--------13-----14-----14-----|--13-----13--------9-----9--|
-----------------------------|----------------------------|
--------11-----12-----12-----|--11-----11--------7-----7--|
-----------------------------|----------------------------|


E E E E E E E E 4x E E E E E E E E
|------------------------------------||------------------------------|
|------------------------------------||------------------------------|
|*--13--13--13--13--14--14--14--14--*||--13-----13-----14-----14-----|
|*----------------------------------*||------------------------------|
|---11--11--11--11--12--12--12--12---||--11-----11-----12-----12-----|
|------------------------------------||------------------------------|


E E E E E E E E E E E E E E E E
------------------------------|-----------------------------|
------------------------------|-----------------------------|
--13-----13--------14-----14--|--------13-----14-----14-----|
------------------------------|-----------------------------|
--11-----11--------12-----12--|--------11-----12-----12-----|
------------------------------|-----------------------------|


E E E E E E E E E E E E E E E E
----------------------------||---------------------------|
----------------------------||---------------------------|
--13-----13--------9-----9--||*--7--7--7--7--7--7--7--7--|
----------------------------||*--7--7--7--7--7--7--7--7--|
--11-----11--------7-----7--||---5--5--5--5--5--5--5--5--|
----------------------------||---------------------------|


E E E E E E E E E E E E E E E E
--------------------------|--------------------------|
--------------------------|--------------------------|
--6--6--6--6--6--6--6--6--|--------------------------|
--6--6--6--6--6--6--6--6--|--4--4--4--4--4--4--4--4--|
--4--4--4--4--4--4--4--4--|--4--4--4--4--4--4--4--4--|
--------------------------|--2--2--2--2--2--2--2--2--|


E E E E E E E E E E E E E E E E
--------------------------|--------------------------|
--------------------------|--------------------------|
--4--4--4--4--4--4--4--4--|--7--7--7--7--7--7--7--7--|
--4--4--4--4--4--4--4--4--|--7--7--7--7--7--7--7--7--|
--2--2--2--2--2--2--2--2--|--5--5--5--5--5--5--5--5--|
--------------------------|--------------------------|


E E E E E E E E E E E E E E E E
--------------------------|--------------------------|
--------------------------|--------------------------|
--6--6--6--6--6--6--6--6--|--------------------------|
--6--6--6--6--6--6--6--6--|--4--4--4--4--6--6--6--6--|
--4--4--4--4--4--4--4--4--|--4--4--4--4--6--6--6--6--|
--------------------------|--2--2--2--2--4--4--4--4--|


E E E E E E E E E E E E E E E E
---------------------------||---------------------------|
---------------------------||---------------------------|
--------------4--4--4--4--*||*--7--7--7--7--7--7--7--7--|
--7--7--7--7--4--4--4--4--*||*--7--7--7--7--7--7--7--7--|
--7--7--7--7--2--2--2--2---||---5--5--5--5--5--5--5--5--|
--5--5--5--5---------------||---------------------------|


E E E E E E E E E E E E E E E E
--------------------------|--------------------------|
--------------------------|--------------------------|
--6--6--6--6--6--6--6--6--|--------------------------|
--6--6--6--6--6--6--6--6--|--4--4--4--4--4--4--4--4--|
--4--4--4--4--4--4--4--4--|--4--4--4--4--4--4--4--4--|
--------------------------|--2--2--2--2--2--2--2--2--|


E E E E E E E E E E E E E E E E
---------------------------||--------------------------|
---------------------------||--------------------------|
--4--4--4--4--4--4--4--4--*||--------------------------|
--4--4--4--4--4--4--4--4--*||--4--4--4--4--6--6--6--6--|
--2--2--2--2--2--2--2--2---||--4--4--4--4--6--6--6--6--|
---------------------------||--2--2--2--2--4--4--4--4--|


E E E E E E E E E E E E E E E E
--------------------------||---------------------------|
--------------------------||---------------------------|
--------------4--4--4--4--||*--7--7--7--7--7--7--7--7--|
--7--7--7--7--4--4--4--4--||*--7--7--7--7--7--7--7--7--|
--7--7--7--7--2--2--2--2--||---5--5--5--5--5--5--5--5--|
--5--5--5--5--------------||---------------------------|


E E E E E E E E E E E E E E E E
--------------------------|--------------------------|
--------------------------|--------------------------|
--6--6--6--6--6--6--6--6--|--------------------------|
--6--6--6--6--6--6--6--6--|--4--4--4--4--4--4--4--4--|
--4--4--4--4--4--4--4--4--|--4--4--4--4--4--4--4--4--|
--------------------------|--2--2--2--2--2--2--2--2--|


E E E E E E E E E E E E E E E E
---------------------------||--------------------------|
---------------------------||--------------------------|
--4--4--4--4--4--4--4--4--*||--------------------------|
--4--4--4--4--4--4--4--4--*||--4--4--4--4--6--6--6--6--|
--2--2--2--2--2--2--2--2---||--4--4--4--4--6--6--6--6--|
---------------------------||--2--2--2--2--4--4--4--4--|


E E E E E E E E E E E E E E E E
--------------------------|--------------------------|
--------------------------|--------------------------|
--------------4--4--4--4--|--------------------------|
--7--7--7--7--4--4--4--4--|--6--6--6--6--6--6--6--6--|
--7--7--7--7--2--2--2--2--|--6--6--6--6--6--6--6--6--|
--5--5--5--5--------------|--4--4--4--4--4--4--4--4--|


E E E E E E E E W
--------------------------|-------------------|-----|
--------------------------|-------------------|-----|
--6--6--6--6--6--6--6--6--|--4----------------|-----|
--6--6--6--6--6--6--6--6--|--4----------------|-----|
--4--4--4--4--4--4--4--4--|--2----------------|-----|
--------------------------|-------------------|-----|


E E E E E E E E E E E E E E E E
------------------------------|------------------------------|
------------------------------|------------------------------|
--13-----13-----14-----14-----|--13-----13--------14-----14--|
------------------------------|------------------------------|
--11-----11-----12-----12-----|--11-----11--------12-----12--|
------------------------------|------------------------------|


E E E E E E E E E E E E E E E E
-----------------------------|----------------------------|
-----------------------------|----------------------------|
--------13-----14-----14-----|--13-----13--------9-----9--|
-----------------------------|----------------------------|
--------11-----12-----12-----|--11-----11--------7-----7--|
-----------------------------|----------------------------|


E E E E E E E E E E E E E E E E
-----------------------------|------------------------------|
-----------------------------|------------------------------|
--------13-----14-----14-----|--13-----13--------14-----14--|
-----------------------------|------------------------------|
--------11-----12-----12-----|--11-----11--------12-----12--|
-----------------------------|------------------------------|


E E E E E E E E E E E E E E E E
-----------------------------|----------------------------|
-----------------------------|----------------------------|
--------13-----14-----14-----|--13-----13--------9-----9--|
-----------------------------|----------------------------|
--------11-----12-----12-----|--11-----11--------7-----7--|
-----------------------------|----------------------------|


E E E E E E E E 4x E E E E E E E E
|------------------------------------||------------------------------|
|------------------------------------||------------------------------|
|*--13--13--13--13--14--14--14--14--*||--13-----13-----14-----14-----|
|*----------------------------------*||------------------------------|
|---11--11--11--11--12--12--12--12---||--11-----11-----12-----12-----|
|------------------------------------||------------------------------|


E E E E E E E E E E E E E E E E
------------------------------|-----------------------------|
------------------------------|-----------------------------|
--13-----13--------14-----14--|--------13-----14-----14-----|
------------------------------|-----------------------------|
--11-----11--------12-----12--|--------11-----12-----12-----|
------------------------------|-----------------------------|


E E E E E E E E E E E E E E E E 4x
----------------------------||------------------------------------||
----------------------------||------------------------------------||
--13-----13--------9-----9--||*--13--13--13--13--14--14--14--14--*||
----------------------------||*----------------------------------*||
--11-----11--------7-----7--||---11--11--11--11--12--12--12--12---||
----------------------------||------------------------------------||


E E E E E E E E E E E E E E E E
------------------------------|------------------------------|
------------------------------|------------------------------|
--13-----13-----14-----14-----|--13-----13--------14-----14--|
------------------------------|------------------------------|
--11-----11-----12-----12-----|--11-----11--------12-----12--|
------------------------------|------------------------------|


E E E E E E E E E E E E E E E E
-----------------------------|----------------------------|
-----------------------------|----------------------------|
--------13-----14-----14-----|--13-----13--------9-----9--|
-----------------------------|----------------------------|
--------11-----12-----12-----|--11-----11--------7-----7--|
-----------------------------|----------------------------|


E E E E E E E E E E E E E E E E
|---------------------------|--------------------------|
|---------------------------|--------------------------|
|*--7--7--7--7--7--7--7--7--|--6--6--6--6--6--6--6--6--|
|*--7--7--7--7--7--7--7--7--|--6--6--6--6--6--6--6--6--|
|---5--5--5--5--5--5--5--5--|--4--4--4--4--4--4--4--4--|
|---------------------------|--------------------------|


E E E E E E E E E E E E E E E E
--------------------------|--------------------------|
--------------------------|--------------------------|
--------------------------|--4--4--4--4--4--4--4--4--|
--4--4--4--4--4--4--4--4--|--4--4--4--4--4--4--4--4--|
--4--4--4--4--4--4--4--4--|--2--2--2--2--2--2--2--2--|
--2--2--2--2--2--2--2--2--|--------------------------|


E E E E E E E E E E E E E E E E
--------------------------|--------------------------|
--------------------------|--------------------------|
--7--7--7--7--7--7--7--7--|--6--6--6--6--6--6--6--6--|
--7--7--7--7--7--7--7--7--|--6--6--6--6--6--6--6--6--|
--5--5--5--5--5--5--5--5--|--4--4--4--4--4--4--4--4--|
--------------------------|--------------------------|


E E E E E E E E E E E E E E E E
--------------------------|---------------------------||
--------------------------|---------------------------||
--------------------------|--------------4--4--4--4--*||
--4--4--4--4--6--6--6--6--|--7--7--7--7--4--4--4--4--*||
--4--4--4--4--6--6--6--6--|--7--7--7--7--2--2--2--2---||
--2--2--2--2--4--4--4--4--|--5--5--5--5---------------||


E E E E E E E E E E E E E E E E
---------------------------|--------------------------|
---------------------------|--------------------------|
*--7--7--7--7--7--7--7--7--|--6--6--6--6--6--6--6--6--|
*--7--7--7--7--7--7--7--7--|--6--6--6--6--6--6--6--6--|
---5--5--5--5--5--5--5--5--|--4--4--4--4--4--4--4--4--|
---------------------------|--------------------------|


E E E E E E E E E E E E E E E E
--------------------------|---------------------------||
--------------------------|---------------------------||
--------------------------|--4--4--4--4--4--4--4--4--*||
--4--4--4--4--4--4--4--4--|--4--4--4--4--4--4--4--4--*||
--4--4--4--4--4--4--4--4--|--2--2--2--2--2--2--2--2---||
--2--2--2--2--2--2--2--2--|---------------------------||


E E E E E E E E E E E E E E E E
--------------------------|--------------------------|
--------------------------|--------------------------|
--------------------------|--------------4--4--4--4--|
--4--4--4--4--6--6--6--6--|--7--7--7--7--4--4--4--4--|
--4--4--4--4--6--6--6--6--|--7--7--7--7--2--2--2--2--|
--2--2--2--2--4--4--4--4--|--5--5--5--5--------------|


E E E E E E E E E E E E E E E E
|---------------------------|--------------------------|
|---------------------------|--------------------------|
|*--7--7--7--7--7--7--7--7--|--6--6--6--6--6--6--6--6--|
|*--7--7--7--7--7--7--7--7--|--6--6--6--6--6--6--6--6--|
|---5--5--5--5--5--5--5--5--|--4--4--4--4--4--4--4--4--|
|---------------------------|--------------------------|


E E E E E E E E E E E E E E E E
--------------------------|---------------------------||
--------------------------|---------------------------||
--------------------------|--4--4--4--4--4--4--4--4--*||
--4--4--4--4--4--4--4--4--|--4--4--4--4--4--4--4--4--*||
--4--4--4--4--4--4--4--4--|--2--2--2--2--2--2--2--2---||
--2--2--2--2--2--2--2--2--|---------------------------||


E E E E E E E E E E E E E E E E
--------------------------|--------------------------|
--------------------------|--------------------------|
--------------------------|--------------4--4--4--4--|
--4--4--4--4--6--6--6--6--|--7--7--7--7--4--4--4--4--|
--4--4--4--4--6--6--6--6--|--7--7--7--7--2--2--2--2--|
--2--2--2--2--4--4--4--4--|--5--5--5--5--------------|


E E E E E E E E E E E E E E E E W
--------------------------|--------------------------|-------------------|
--------------------------|--------------------------|-------------------|
--------------------------|--6--6--6--6--6--6--6--6--|--4----------------|
--6--6--6--6--6--6--6--6--|--6--6--6--6--6--6--6--6--|--4----------------|
--6--6--6--6--6--6--6--6--|--4--4--4--4--4--4--4--4--|--2----------------|
--4--4--4--4--4--4--4--4--|--------------------------|-------------------|


W W W W
-------------------|-------------------|-------------------|-------------------|
-------------------|-------------------|-------------------|-------------------|
--L----------------|--L----------------|--L----------------|--L----------------|
--L----------------|--L----------------|--L----------------|--L----------------|
--L----------------|--L----------------|--L----------------|--L----------------|
-------------------|-------------------|-------------------|-------------------|


W W W
-------------------|-------------------|-------------------|-------------------|
-------------------|-------------------|-------------------|-------------------|
--L----------------|--L----------------|--L----------------|-------------------|
--L----------------|--L----------------|--L----------------|-------------------|
--L----------------|--L----------------|--L----------------|-------------------|
-------------------|-------------------|-------------------|-------------------|


-------------------|-------------------|-------------------|-------------------|
-------------------|-------------------|-------------------|-------------------|
-------------------|-------------------|-------------------|-------------------|
-------------------|-------------------|-------------------|-------------------|
-------------------|-------------------|-------------------|-------------------|
-------------------|-------------------|-------------------|-------------------|


-------------------|-------------------|-------------------|-------------------|
-------------------|-------------------|-------------------|-------------------|
-------------------|-------------------|-------------------|-------------------|
-------------------|-------------------|-------------------|-------------------|
-------------------|-------------------|-------------------|-------------------|
-------------------|-------------------|-------------------|-------------------|


-------------------|-------------------|-------------------|
-------------------|-------------------|-------------------|
-------------------|-------------------|-------------------|
-------------------|-------------------|-------------------|
-------------------|-------------------|-------------------|
-------------------|-------------------|-------------------|


E E E E E E E E E E E E E E E E
|---------------------------|--------------------------|
|---------------------------|--------------------------|
|*--7--7--7--7--7--7--7--7--|--6--6--6--6--6--6--6--6--|
|*--7--7--7--7--7--7--7--7--|--6--6--6--6--6--6--6--6--|
|---5--5--5--5--5--5--5--5--|--4--4--4--4--4--4--4--4--|
|---------------------------|--------------------------|


E E E E E E E E E E E E E E E E
--------------------------|---------------------------||
--------------------------|---------------------------||
--------------------------|--4--4--4--4--4--4--4--4--*||
--4--4--4--4--4--4--4--4--|--4--4--4--4--4--4--4--4--*||
--4--4--4--4--4--4--4--4--|--2--2--2--2--2--2--2--2---||
--2--2--2--2--2--2--2--2--|---------------------------||


bitmezzzzz..........
E E E E E E E E E E E E E E E E
--------------------------|---------------------------------------------||
--------------------------|---------------------------------------------||
--------------------------|--------------------------------4--4--4--4--*||
--4--4--4--4--6--6--6--6--|--7--------------------7--7--7--4--4--4--4--*||
--4--4--4--4--6--6--6--6--|--7--------------------7--7--7--2--2--2--2---||
--2--2--2--2--4--4--4--4--|--5--------------------5--5--5---------------||

Duman - Köprü Altı Tab Bass :


G:--------------------------------
D:--------------------------------
A:-5-5-5-5-5-5-5-5-4-4-4-4-4-4-4-4
E:--------------------------------

G:--------------------------------
D:--------------------------------
A:-----------------2-2-2-2-2-2-2-2
E:-2-2-2-2-2-2-2-2----------------

G:--------------------------------
D:--------------------------------
A:-5-5-5-5-5-5-5-5-4-4-4-4-4-4-4-4
E:--------------------------------

F# G# A B
G:--------------------------------
D:--------------------------------
A:--------------------------------
E:-2-2-2-2-4-4-4-4-5-5-5-5-7-7-7-7
4 Kes fln sora

G:--------------------------------------------------
D:--------------------------------------------------
A:-5-5-5-5-5-5-5-5-4-4-4-4-4-4-4-4-2----------------
E:---------------------------------------------12-/-
(12Den kayma 0a kadar)

Hepsi baştan sonra

G:--------------------------------
D:--------------------------------
A:-5-5-5-5-5-5-5-5-4-4-4-4-4-4-4-4
E:--------------------------------

Bas solosu
G:-------------------------------4------------4---------
D:-----------------------------4------------4-----------
A:-2---------------2--------------------------2--------2
E:---------------2-------------2------------------------