Duman - Herşeyi Yak Tab (1-2-3 Versiyon) (Elektro Ve Bass)

5 Şubat 2007
1,810
18
139
İzmir(35½)
Duman - Herşeyi Yak Tab :

D5
e|-----------------|
B|-----------------|
G|-7-7-7-7-7-7-7-7-|
D|-7-7-7-7-7-7-7-7-|
A|-5-5-5-5-5-5-5-5-|
E|-----------------|
(.......PM........)

00:09
INTRO SOLO: (play 4x)
e|-------------------------------------|
B|-------------------------------------|
G|-7-7-7p9-5-5-5-5-0-3-3-0-2-2-2-2p3-0-|
D|-0-0-0-0-0-0-0-0-0-0-0-0-0-0-0-0-0-0-|
A|-------------------------------------|
E|-------------------------------------|

00:28 / 03:10
D5 C5 Bb5
Beni yak kendini yak herşeyi yak
\D5 C5 Bb5
Bir kıvılcım yeter ben hazırım bak
A5 A#5
İster öp okşa,istersen öldür,
G5 A5
Aşk için ölmeli aşk o zaman aşk,
G5 A#5 A5
Aşk için ölmeli aşk o zaman aşk.

01:12
D5 C5 Bb5
Seni içime çektim bir nefeste,
\D5 C5 Bb5
Yüreğim tutuklu gönlüm kafeste,
A5 A#5
Yanacağız ikimizde ateşte,
G5 A5
Bir kıvılcım yeter ben hazırım bak,
G5 A#5 A5
Aşk için ölmeli aşk o zaman aşk.

01:41 / 02:50
D5 G5 D5 A5
Allahım allahım,
G5 A5
Ateşlere yürüyorum,
D5 G5 D5 A5
Allahım acı yine,
G5 A#5-A5
Aşk yine büyüyorum.

02:21
D5 C5 Bb5 )B
Beni yor hasretinle sevginle yor, )A
\D5 C5 Bb5 )S
Sevgisizlik ayrılıktan daha zor, )S
A5 A#5 )
Dilediğin kadar acıt canımı, )
G5 A5 )O
Yokluğun da varlığın da yetmiyor, )N
G5 A#5 A5 ...D5 )L
Yokluğun da varlığın da yetmiyor. )Y

00:53 / 02:00
SOLO:
e|-----------------------------------------------------------------------|
B|-----------------------------------------------------------------------|
G|-7-7-7p9-5-5-5-5-0-3-3-0-2-2-(3-2)-------------------------------------|
D|-0-0-0-0-0-0-0-0-0-0-0-0-0-0-(0-0)-5-3-2-3-3-5-2-2-3-3-3-3-3-3-3-3-(0)-|
A|-----------------------------------0-0-0-0-0-0-0-0-0-0-0-0-0-0-0-0-(0)-|
E|-----------------------------------------------------------------------|

E A D G B e
- - - - - -
A5-----5 7 7 x x x
Bb5----x 1 3 3 x x
C5-----x 3 5 5 x x
D5-----x 5 7 7 x x
F5-----1 3 3 x x x
G5-----3 5 5 x x x

p : pull off

Versiyon 2 :

Beni yak kendini yak her şeyi yak
G:-2-2-2-2-0-2-3-5-7-3-2--|

Bir kıvılcım yeter ben hazırım bak
G:-2-2-2-2-0-2-3-5-7-3-2--|

İster öp okşa istersen öldür
G:-5-7-9-9-9-9-10-7-9-10--|

Aşk için ölmeli aşk o zaman aşk
G:-7-7-7-7-7-7-7-6-7-9-10-9--|

Aşk için ölmeli aşk o zaman aşk

G:-12-12-12-12-14-12-10-10-12-9-10-7--|

G:-7-7-7-9-5-5-5-0-3-3-0-2-2-2-0--|
A:-0-0-0-0-0-0-0-0-0-0-0-0-0-0-0--|

G:-7-7-7-9-5-5-5-0-3-3-0-2-2-2-0--|
A:-0-0-0-0-0-0-0-0-0-0-0-0-0-0-0--|

G:-7-7-7-9-5-5-5-0-3-3-0-2-2-2-0--|
A:-0-0-0-0-0-0-0-0-0-0-0-0-0-0-0-3-2-0-2-3-2-0--|

Seni içime çektim bir nefeste
G:-2-2-2-2-0-2-3-5-7-3-2--|

Yüreğim tutuklu göğsüm kafeste
G:-2-2-2-2-0-2-3-5-7-3-2--|

Yanacağız ikimizde ateşte
G:-5-7-9-9-9-9-10-9-7-9-10--|

Bir kıvılcım yeter hazırım bak
G:-7-7-7-7-7-7-6-7-9-10-9--|

Aşk için ölmeli aşk o zaman aşk
G:-12-12-12-12-14-12-10-10-12-9-10-7--|

G:-7-7-7-7-7-7-7-7-7-7-7-7-7--|
A:-0-0-0-0-0-0-0-0-0-0-0-0-0--|

Allahım allah ım ateşlere yürüyorum
G:-14-14-12-10-7-9-12-12-12-10-10-9-10-7--|

Allah ım acı ile aşk ile büyüyorum
G:-14-14-12-10-11-7-9-12-12-10-10-9-10-7--|

G:-7-7-7-9-5-5-5-0-3-3-0-2-2-2-0--|
A:-0-0-0-0-0-0-0-0-0-0-0-0-0-0-0--|

G:-7-7-7-9-5-5-5-0-3-3-0-2-2-2-0--|
A:-0-0-0-0-0-0-0-0-0-0-0-0-0-0-0--|

G:-7-7-7-9-5-5-5-0-3-3-0-2-2-2-0--|
A:-0-0-0-0-0-0-0-0-0-0-0-0-0-0-0-3-2-0-2-3-2-0--|

Beni yor hasretinle sevginle yor
G:-2-2-2-2-0-2-3-5-7-3-2--|

Sevgisizlik ayrılıktan daha zor
G:-2-2-2-2-0-2-3-5-7-3-2--|

Dilediğin kadar acıt canımı
G:-5-7-9-9-9-9-9-10-7-9-10--|

Yokluğunda varlığında yetmiyor
G:-7-7-7-7-7-7-7-7-6-7-9-10-9--|

Yokluğunda varlığında yetmiyor
G:-12-12-12-12-14-10-10-10-12-9-10-7--|

G:-7-7-7-9-5-5-5-0-3-3-0-2-2-2-0--|
A:-0-0-0-0-0-0-0-0-0-0-0-0-0-0-0--|

G:-7-7-7-9-5-5-5-0-3-3-0-2-2-2-0--|
A:-0-0-0-0-0-0-0-0-0-0-0-0-0-0-0--|

G:-7-7-7-9-5-5-5-0-3-3-0-2-2-2-0--|
A:-0-0-0-0-0-0-0-0-0-0-0-0-0-0-0-3-2-0-2-3-2-0--|

Versiyon 3 :


İNTRO

E = -----------------------------------------------------------------------------
B = -----------------------------------------------------------------------------
G = 7-7-9-5-5-5-0-3-3-0-2-2-2-0 -------------------------------------------------
D = 0-0-0-0-0-0-0-0-0-0-0-0-0-0 -------------------------------------------------
A = -----------------------------------------------------------------------------
E = -----------------------------------------------------------------------------

(4 Kez çalınacak)



E = -----------------------------------------------------------------------------
B = -----------------------------------------------------------------------------
G = 2-2-2-2-2-2-2-2-5-5-5-5-3-3-3-3-----------------------------------------(2 kez )
D = 0-0-0-0-0-0-0-0-0-0-0-0-0-0-0-0-----------------------------------------------
A = -----------------------------------------------------------------------------
E = -----------------------------------------------------------------------------
(Beni yak kendini yak herşeyi yak bir kıvılcım yeter ben hazırım bak)
(Seni içime çektim bir nefeste yüreğim tutuklu göğsüm kafeste)



E = -----------------------------------------------------------------------------
B = -----------------------------------------------------------------------------
G = 2-2-2-2-2-2-2-2-3-3-3-3-3-0-0-0-0-0-0-0-2-2-2-2-2-2-2-0-0-0-0-0-0-0-3-3-3-3-3-3-3
D = 0-0-0-0-0-0-0-0-0-0-0-0-0-0-0-0-0-0-0-0-0-0-0-0-0-0-0-0-0-0-0-0-0-0-0-0-0-0-0
A = -----------------------------------------------------------------------------
E = -----------------------------------------------------------------------------

(ister öp okşa istersen öldür aşk için ölmeli aşk o zaman aşk aşk için ölmeli aşk o zaman aşk )

(yanacağız ikimizde ateşte bir kıvılcım yeter hazırım bak aşk için ölmeli aşk o zaman aşk )


*~~ GEÇİŞ ~~*

E = -----------------------------------------------------------------------------
B = -----------------------------------------------------------------------------
G = 7-7-9-5-5-5-0-3-3-0-2-2-2--------------------0-------------------------------
D = 0-0-0-0-0-0-0-0-0-0-0-0-0-2-3-2-3-5-3-2-0-0-0--------------------------------
A = -----------------------------------------------------------------------------
E = -----------------------------------------------------------------------------


E = -----------------------------------------------------------------------------
B = -----------------------------------------------------------------------------
G = 7-7-9-5-5-5-0-3-3-0-2-2-2----------------------------------------------------
D = 0-0-0-0-0-0-0-0-0-0-0-0-0-2-3-2-3-5-3-2-0-0-0-0-0-0--------------------------
A = -----------------------------------------------------------------------------
E = -----------------------------------------------------------------------------


E = ---------------------------------------------------------------------------
B = ---------------------------------------------------------------------------
G = ---------------------------------------------------------------------------
D = 7--7-5-5-5-5-3-0-2-2-2-2-5-5-5-5-3-3-3-3-0-0-0-0---------------------------
A = ---------------------------------------------------------------------------
E = ---------------------------------------------------------------------------

Duman - Herşeyi Yak Tab Bass :

Track 3

G||------|------|------|------|-----------------------------|
D||------|------|------|------|-----------------------------|
A||------|------|------|------|--3/5-5--5--3/5-5--5--3/5-5--|
E||------|------|------|------|-----------------------------|



-----------------------------|-----------------------------|
-----------------------------|-----------------------------|
--3/5-5--5--3/5-5--5--3/5-5--|--3/5-5--5--3/5-5--5--3/5-5--|
-----------------------------|-----------------------------|



-----------------------------|-----------------------------|
-----------------------------|-----------------------------|
--3/5-5--5--3/5-5--5--3/5-5--|--3/5-5--5--3/5-5--5--3/5-5--|
-----------------------------|-----------------------------|



-----------------------------|-----------------------------|
-----------------------------|-----------------------------|
--3/5-5--5--3/5-5--5--3/5-5--|--3/5-5--5--3/5-5--5--3/5-5--|
-----------------------------|-----------------------------|



-----------------------------|--------------------------|
-----------------------------|--------------------------|
--3/5-5--5--3/5-5--5--3/5-5--|--5--5--5--0--5--5--5--0--|
-----------------------------|--------------------------|



--------------------------|--------------------------|
--------------------------|--------------------------|
--3--3--3--0--1--1--1--0--|--5--5--5--0--5--5--5--0--|
--------------------------|--------------------------|



--------------------------|--------------------------|
--------------------------|--------------------------|
--3--3--3--0--1--1--1--0--|--------------------------|
--------------------------|--5--5--5--0--5--5--5--0--|



--------------------------|--------------------------|
--------------------------|--------------------------|
--------------------------|--------------------------|
--6--6--6--0--6--6--6--0--|--3--3--3--0--3--3--3--0--|



--------------------------|--------------------------|
--------------------------|--------------------------|
--------------------------|--------------------------|
--5--5--5--0--5--5--5--0--|--3--3--3--0--3--3--3--0--|



--------------------------|-----------------------------|
--------------------------|-----------------------------|
--------------------------|--3/5-5--5--3/5-5--5--3/5-5--|
--6--6--6--6--6--6--6--6--|-----------------------------|



-----------------------------|----------------------------|
-----------------------------|----------------------------|
--3/5-5--5--3/5-5--5--3/5-5--|----------------------------|
-----------------------------|--3--1--0--1/---10--10--10--|



----------------------------------|-----------------------------|
----------------------------------|-----------------------------|
----------------------------------|--3/5-5--5--3/5-5--5--3/5-5--|
--10--10--10--10--10--10--10--10--|-----------------------------|



-----------------------------|----------------------------|
-----------------------------|----------------------------|
--3/5-5--5--3/5-5--5--3/5-5--|----------------------------|
-----------------------------|--3--1--0--1/---10--10--10--|



----------------------------------|--------------------------|
----------------------------------|--------------------------|
----------------------------------|--5--5--5--0--5--5--5--0--|
--10--10--10--10--10--10--10--10--|--------------------------|



--------------------------|--------------------------|
--------------------------|--------------------------|
--3--3--3--0--1--1--1--0--|--5--5--5--0--5--5--5--0--|
--------------------------|--------------------------|



--------------------------|--------------------------|
--------------------------|--------------------------|
--3--3--3--0--1--1--1--0--|--------------------------|
--------------------------|--5--5--5--0--5--5--5--0--|



--------------------------|--------------------------|
--------------------------|--------------------------|
--------------------------|--------------------------|
--6--6--6--0--6--6--6--0--|--3--3--3--0--3--3--3--0--|



--------------------------|--------------------------|
--------------------------|--------------------------|
--------------------------|--------------------------|
--5--5--5--0--5--5--5--0--|--3--3--3--0--3--3--3--0--|



--------------------------|-------------------|------------------|
--------------------------|-------------------|------------------|
--------------------------|-------------------|------------------|
--6--6--6--6--6--6--6--6--|--6----------------|------------------|



---------------------|---------------------|--------------------------|
---------------------|---------------------|--------------------------|
--5------------------|--5------------------|--------------------------|
-----5----3----------|-----0----5----------|--3--3--3--3--3--3--3--3--|



----------------------------------|---------------------|---------------------|
----------------------------------|---------------------|---------------------|
----------------------------------|--5------------------|--5------------------|
--10--10--10--10--10--10--10--10--|-----5----3----------|-----0----5----------|



--------------------------|----------------------------------|
--------------------------|----------------------------------|
--------------------------|----------------------------------|
--3--3--3--3--3--3--3--3--|--10--10--10--10--10--10--10--10--|



-----------------------------|-----------------------------|
-----------------------------|-----------------------------|
--3/5-5--5--3/5-5--5--3/5-5--|--3/5-5--5--3/5-5--5--3/5-5--|
-----------------------------|-----------------------------|



----------------------------|----------------------------------|
----------------------------|----------------------------------|
----------------------------|----------------------------------|
--3--1--0--1/---10--10--10--|--10--10--10--10--10--10--10--10--|



-----------------------------|-----------------------------|
-----------------------------|-----------------------------|
--3/5-5--5--3/5-5--5--3/5-5--|--3/5-5--5--3/5-5--5--3/5-5--|
-----------------------------|-----------------------------|



----------------------------|-------------------|------------------|
----------------------------|--0----------------|------------------|
----------------------------|-------------------|------------------|
--3--1--0--1/---10--10--10--|-------------------|------------------|



-------------------|--------------------|-------------------|
-------------------|--------------------|-------------------|
--5----------------|--3--------1--------|--5----------------|
-------------------|--------------------|-------------------|



--------------------|-------------------|-------------------|
--------------------|-------------------|-------------------|
--3--------1--------|--0----------------|--1----------------|
--------------------|-------------------|-------------------|



-------------------|-------------------|-------------------|-------------------|
-------------------|-------------------|-------------------|-------------------|
-------------------|-------------------|-------------------|-------------------|
--3----------------|--5----------------|--3----------------|--6----------------|



------------------|------------------|---------------------|
------------------|------------------|---------------------|
------------------|------------------|--5------------------|
------------------|------------------|-----5----3----------|



---------------------|--------------------------|
---------------------|--------------------------|
--5------------------|--------------------------|
-----0----5----------|--3--3--3--3--3--3--3--3--|



----------------------------------|---------------------|---------------------|
----------------------------------|---------------------|---------------------|
----------------------------------|--5------------------|--5------------------|
--10--10--10--10--10--10--10--10--|-----5----3----------|-----0----5----------|



--------------------------|----------------------------------|
--------------------------|----------------------------------|
--------------------------|----------------------------------|
--3--3--3--3--3--3--3--3--|--10--10--10--10--10--10--10--10--|



--------------------------|--------------------------|
--------------------------|--------------------------|
--5--5--5--0--5--5--5--0--|--3--3--3--0--1--1--1--0--|
--------------------------|--------------------------|



--------------------------|--------------------------|
--------------------------|--------------------------|
--5--5--5--0--5--5--5--0--|--3--3--3--0--1--1--1--0--|
--------------------------|--------------------------|



--------------------------|--------------------------|
--------------------------|--------------------------|
--------------------------|--------------------------|
--5--5--5--0--5--5--5--0--|--6--6--6--0--6--6--6--0--|



--------------------------|--------------------------|
--------------------------|--------------------------|
--------------------------|--------------------------|
--3--3--3--0--3--3--3--0--|--5--5--5--0--5--5--5--0--|



--------------------------|--------------------------|
--------------------------|--------------------------|
--------------------------|--------------------------|
--3--3--3--0--3--3--3--0--|--6--6--6--6--6--6--6--6--|



--------------------------|--------------------------|
--------------------------|--------------------------|
--5--5--5--0--5--5--5--0--|--3--3--3--0--1--1--1--0--|
--------------------------|--------------------------|



--------------------------|--------------------------|
--------------------------|--------------------------|
--5--5--5--0--5--5--5--0--|--3--3--3--0--1--1--1--0--|
--------------------------|--------------------------|



--------------------------|--------------------------|
--------------------------|--------------------------|
--------------------------|--------------------------|
--5--5--5--0--5--5--5--0--|--6--6--6--0--6--6--6--0--|



--------------------------|--------------------------|
--------------------------|--------------------------|
--------------------------|--------------------------|
--3--3--3--0--3--3--3--0--|--5--5--5--0--5--5--5--0--|



--------------------------|--------------------------|
--------------------------|--------------------------|
--------------------------|--------------------------|
--3--3--3--0--3--3--3--0--|--6--6--6--6--6--6--6--6--|



--------------------------|--------------------------|
--------------------------|--------------------------|
--5--5--5--0--5--5--5--0--|--3--3--3--0--1--1--1--0--|
--------------------------|--------------------------|



--------------------------|--------------------------|
--------------------------|--------------------------|
--5--5--5--0--5--5--5--0--|--3--3--3--0--1--1--1--0--|
--------------------------|--------------------------|



--------------------------|--------------------------|
--------------------------|--------------------------|
--------------------------|--------------------------|
--5--5--5--0--5--5--5--0--|--6--6--6--0--6--6--6--0--|



--------------------------|--------------------------|
--------------------------|--------------------------|
--------------------------|--------------------------|
--3--3--3--0--3--3--3--0--|--5--5--5--0--5--5--5--0--|



--------------------------|--------------------------|
--------------------------|--------------------------|
--------------------------|--------------------------|
--3--3--3--0--3--3--3--0--|--6--6--6--6--6--6--6--6--|



--------------------------|--------------------------|
--------------------------|--------------------------|
--5--5--5--0--5--5--5--0--|--3--3--3--0--1--1--1--0--|
--------------------------|--------------------------|



--------------------------|--------------------------|
--------------------------|--------------------------|
--5--5--5--0--5--5--5--0--|--3--3--3--0--1--1--1--0--|
--------------------------|--------------------------|



--------------------------|--------------------------|
--------------------------|--------------------------|
--------------------------|--------------------------|
--5--5--5--0--5--5--5--0--|--6--6--6--0--6--6--6--0--|



--------------------------|--------------------------|
--------------------------|--------------------------|
--------------------------|--------------------------|
--3--3--3--0--3--3--3--0--|--5--5--5--0--5--5--5--0--|



--------------------------|--------------------------||
--------------------------|--------------------------||
--------------------------|--------------------------||
--3--3--3--0--3--3--3--0--|--6--6--6--6--6--6--6--6--||