Duman - Helal Olsun Tab (1-2-3-4-5 Versiyon)

5 Şubat 2007
1,810
18
139
İzmir(35½)
Duman - Helal Olsun Tab :

geceler zehir...
E ---------5-5-5-5-5-7---------9-7-5-5-4------------------------------ )
B -------------------------------------------------------------------- )
G -------------------------------------------------------------------- ) 3 kez
D -------------------------------------------------------------------- )
A -------------------------------------------------------------------- )
E -------------------------------------------------------------------- )

E ---------5-5-5-5-5-7------------------------------------------------
B --------------------------------------------------------------------
G --------------------------------------------------------------------
D --------------------------------------------------------------------
A --------------------------------------------------------------------
E --------------------------------------------------------------------

sabah olmuş...helal olsun...
E ---------8-8--7-3-8-8-7-----3-5-3-5-7-3-----8-12-8-7-7-5-3-5-7------ )
B -------------------------------------------------------------------- )
G -------------------------------------------------------------------- ) 2 kez
D -------------------------------------------------------------------- )
A -------------------------------------------------------------------- )
E -------------------------------------------------------------------- )

geceler benim...
E ---------5-5-5-5-5-7---------9-7-5-5-4-----5-5-5-5-5-7--------------
B --------------------------------------------------------------------
G --------------------------------------------------------------------
D --------------------------------------------------------------------
A --------------------------------------------------------------------
E --------------------------------------------------------------------

sabah olmuş...helal olsun...
E ---------8-8--7-3-8-8-7-----3-5-3-5-7-3-----8-12-8-7-7-5-3-5-7------ )
B -------------------------------------------------------------------- )
G -------------------------------------------------------------------- ) 2 kez
D -------------------------------------------------------------------- )
A -------------------------------------------------------------------- )
E -------------------------------------------------------------------- )

Versiyon 2 :


GİRİŞ

G5 B5 F#5 E5

eI-3-2-3-5-2--------------------------------
BI------------3-2-3-5-2---------------------
GI-----------------------2-2-4-6-4--0-0-----
DI------------------------------------------

G5 B5 F#5 E5

eI-3-2-3-5-2--------------------------------
BI------------3-2-3-5-2---------------------
GI-----------------------2-2-4-6-4--6-4-----
DI------------------------------------------

_____________________________________________


G5 A5 B5


GI------------------------------------------
DI------------------------------------------ 4 DEFA
AI-4-5-4-5-4--0--2--2-5-4-------------------
EI------------------------------------------

geceler zehir
geceler kara
uçasım gelir
kanadım yara
_____________________________________________

GİRİŞ

_____________________________________________

G5 A5 B5

GI------------------------------------------
DI------------------------------------------ 3 DEFA
AI-4-5-4-5-4--0--2--2-5-4-------------------
EI------------------------------------------

yaralar derin
seneler kadar
açılın geri


GI------------------------------------------
DI------------------------------------------
AI-9-7--------------------------------------
EI-----10-9-10-9-7-5------------------------
_____________________________________________

NAKARAT

G Bm
Sabah olmuş gün doğmuş
F#m A
Her yerimde karlar
G Bm F#m A
Doymadım, dönülmüş deliye
G Bm
Helal olsun aşk olsun
F#m A
Gözlerimde yaşlar
G Bm F#m E F#M A
Durmadım, dönülmez geriye

______________________________________________

GİRİŞ
______________________________________________

G5 A5 B5


GI------------------------------------------
DI------------------------------------------ 3 DEFA
AI-4-5-4-5-4--0--2--2-5-4-------------------
EI------------------------------------------

geceler benim
geceler bana
unutun beni


GI------------------------------------------
DI------------------------------------------
AI-9-7--------------------------------------
EI-----10-9-10-9-7-5------------------------
_____________________________________________

NAKARAT

G Bm
Sabah olmuş gün doğmuş
F#m A
Her yerimde karlar
G Bm F#m A
Doymadım, dönülmüş deliye
G Bm
Helal olsun aşk olsun
F#m A
Gözlerimde yaşlar
G Bm F#m E F#m E F#m A
Durmadım, dönülmez geriye

_____________________________________________

SOLO ÖNCESİ


GI------------------------------------------
DI------------------------------------------
AI-----4-5-7-5-4----------------------------
EI-5-7-----------5--------------------------


Em G Bm A }
Em G Bm Bm } 2 DEFA+2 DEFA DA AŞAĞIDAKİ KISIMLA BİRLİKTE

eI-12--12--10--9--10-9---------9--10-9---------- }
BI----------------------12-12----------12-12---- }
GI---------------------------------------------- }
DI---------------------------------------------- }
)
}
eI-14-10--9--10-12--------12--12--10--9--10-9--- }
BI---------------------------------------------- }
GI---------------------------------------------- } 2 DEFA
DI---------------------------------------------- }
)
)
eI----------9--10--9--12------------------------ }
BI-12-12---------------------------------------- }
GI---------------------------------------------- }
DI---------------------------------------------- }

Versiyon 3 :

-3-2-3-/5-2----------------------------
------------3-2-3-/5-2---------------
-----------------------2-2-4-/6-4----
----------------------------------5-5-
-------------------------------------
--------------------------------------


-3-2-3-/5-2----------------------------
------------3-2-3-/5-2-----------------
-----------------------2-2-4-/6-4--6-/4p
---------------------------------------
---------------------------------------
---------------------------------------

sözlerden önce;
----------------------------------
----------------------------------
----------------------------------
----------------------------------
-4-5-4-5-4-0-2-2-5-4---------------
----------------------------------
sözlerdede sırasıyla

-----------------------------------
-----------------------------------
-4-6-7-7-/9----------11-9-7-/6--7-6 2x
-----------------------------------
-----------------------------------
-----------------------------------

1:06daki geçiş
-----------------------------------
-----------------------------------
-----------------------------------
-----------------------------------
-9-7-------------------------------
-----10-9-10-9-7--5----------------

2:53deki geçiş
-----------------------------------
-----------------------------------
-----------------------------------
-----------------------------------
-----4-5-7-5-4----------------------
-5-7-----------5--------------------
2:55-3:22 arası
-----------------------------------------------------------
-----------------------------------------------------------
-------------------------------------------------------------
--2-2-2---5-5-5----9-9-9----7-7-7---2-2----5-5-5----9----------
--2-2-2---5-5-5----9-9-9----7-7-7---2-2----5-5-5----9-----------
----------3-3-3----7-7-7----5-5-5----------3-3-3----7------------
akorların sayısını şarkıya göre basın akor geçişlerini takip ederek
son 7perdesindeki bareyi 8 defa vurun ve bu bölümü 2 defa çalın

3:22
-12-12-12-10-9-10-9-7-9-10-9-7--14-10-9-10-12---12-12-12-10-9-10-9----9-10-9------
-------------------------------------------------------------------12--------12---
------------------------------------------------------------------------------
------------------------------------------------------------------------------
------------------------------------------------------------------------------
------------------------------------------------------------------------------
2 tekrar yapılcak

4:14
-10-10-9--10-10-9---------------------10-14-10-9-9------------------
--------10-------10-12-10-12-12-/14-10------------12-10-12-14--------------
----------------------------------------------------------------------------
-----------------------------------------------------------------------------
---------------------------------------------------------------------------
------------------------------------------------------------------------------
5 defa tekrar 2si sözlü nakaratla birlikte

Versiyon 4 :


------------------------|--------------------------|
-----------11-12--------|-------------13-15--------|
---15^^-----------------|------15------------------|
------------------------|--------------------------|
------------------------|--------------------------|
------------------------|--------------------------|



------------------------|--------------------------|
-----------------11^^---|---------14-15------------|
-14-16-14-16---------13-|----16--------------------|
------------------------|--------------------------|
------------------------|--------------------------|
------------------------|--------------------------|

------------------------|--------------------------|
------------------------|-14^^-13^^----------------|
-15-15-17-16-18aşğıbent-|----------13aşğıbent-14---|
------------------------|--------------------------|
------------------------|--------------------------|
------------------------|--------------------------| (x2)

^^ : Bent

Versiyon 5 :

B)-8-7-8-10-7-3-2-3-5-2---------------------------------------------- intro
G)----------------------2-2-4-6-4-0-0--------------------------------

B)-8-7-8-10-7-3-2-3-5-2----------------------------------------------
G)----------------------2-2-4-6-4-6-4--------------------------------
A)-4-5-4-5-0-0-2-4-2-------------------------------------------------

köprü
helal olsun aşk olsun gözlerimde yaşlar doymadım dönülmüş deliye
E)-----------------------------8--------------------------------------------
B)8-8-7----8-8-7--------------8-8-8-8-7--------------------------------------
G)------7--------7-9-7-9-11-7----------7-9-11------------------------------

sabah olmuş gün doğmuş her yerimde karlar...

E)-----------------------------8--------------------------------------------
B)8-8-7----8-8-7--------------8-8-8-8-7--------------------------------------
G)------7--------7-9-7-9-11-7----------7-9-11------------------------------